  0
SECTION
  2
HEADER
  9
$ACADVER
  1
AC1009
  9
$INSBASE
 10
0.0
 20
0.0
 30
0.0
  9
$EXTMIN
 10
2172.077293784866
 20
-3480.4323745683459
 30
0.0
  9
$EXTMAX
 10
61572.077293784867
 20
38519.567625431642
 30
0.0
  9
$LIMMIN
 10
0.0
 20
0.0
  9
$LIMMAX
 10
30000.0
 20
20000.0
  9
$ORTHOMODE
 70
     1
  9
$REGENMODE
 70
     1
  9
$FILLMODE
 70
     1
  9
$QTEXTMODE
 70
     0
  9
$MIRRTEXT
 70
     1
  9
$DRAGMODE
 70
     2
  9
$LTSCALE
 40
1.0
  9
$OSMODE
 70
    37
  9
$ATTMODE
 70
     1
  9
$TEXTSIZE
 40
2.5
  9
$TRACEWID
 40
1.0
  9
$TEXTSTYLE
  7
STANDARD
  9
$CLAYER
  8
LAYER3
  9
$CELTYPE
  6
BYLAYER
  9
$CECOLOR
 62
   256
  9
$DIMSCALE
 40
0.0
  9
$DIMASZ
 40
2.5
  9
$DIMEXO
 40
0.625
  9
$DIMDLI
 40
3.75
  9
$DIMRND
 40
0.0
  9
$DIMDLE
 40
0.0
  9
$DIMEXE
 40
1.25
  9
$DIMTP
 40
0.0
  9
$DIMTM
 40
0.0
  9
$DIMTXT
 40
2.5
  9
$DIMCEN
 40
2.5
  9
$DIMTSZ
 40
0.0
  9
$DIMTOL
 70
     0
  9
$DIMLIM
 70
     0
  9
$DIMTIH
 70
     0
  9
$DIMTOH
 70
     0
  9
$DIMSE1
 70
     0
  9
$DIMSE2
 70
     0
  9
$DIMTAD
 70
     1
  9
$DIMZIN
 70
     8
  9
$DIMBLK
  1

  9
$DIMASO
 70
     1
  9
$DIMSHO
 70
     1
  9
$DIMPOST
  1

  9
$DIMAPOST
  1

  9
$DIMALT
 70
     0
  9
$DIMALTD
 70
     3
  9
$DIMALTF
 40
0.03937007874016
  9
$DIMLFAC
 40
1.0
  9
$DIMTOFL
 70
     1
  9
$DIMTVP
 40
0.0
  9
$DIMTIX
 70
     0
  9
$DIMSOXD
 70
     0
  9
$DIMSAH
 70
     0
  9
$DIMBLK1
  1

  9
$DIMBLK2
  1

  9
$DIMSTYLE
  2
ISO-25
  9
$DIMCLRD
 70
     0
  9
$DIMCLRE
 70
     0
  9
$DIMCLRT
 70
     0
  9
$DIMTFAC
 40
1.0
  9
$DIMGAP
 40
0.625
  9
$LUNITS
 70
     2
  9
$LUPREC
 70
     4
  9
$SKETCHINC
 40
1.0
  9
$FILLETRAD
 40
10.0
  9
$AUNITS
 70
     0
  9
$AUPREC
 70
     0
  9
$MENU
  1
.
  9
$ELEVATION
 40
0.0
  9
$PELEVATION
 40
0.0
  9
$THICKNESS
 40
0.0
  9
$LIMCHECK
 70
     0
  9
$BLIPMODE
 70
     0
  9
$CHAMFERA
 40
10.0
  9
$CHAMFERB
 40
10.0
  9
$SKPOLY
 70
     0
  9
$TDCREATE
 40
2453269.3805599771
  9
$TDUPDATE
 40
2453273.506842731
  9
$TDINDWG
 40
0.4722310185
  9
$TDUSRTIMER
 40
0.472230787
  9
$USRTIMER
 70
     1
  9
$ANGBASE
 50
90.0
  9
$ANGDIR
 70
     0
  9
$PDMODE
 70
     0
  9
$PDSIZE
 40
0.0
  9
$PLINEWID
 40
0.0
  9
$COORDS
 70
     2
  9
$SPLFRAME
 70
     0
  9
$SPLINETYPE
 70
     6
  9
$SPLINESEGS
 70
     8
  9
$ATTDIA
 70
     0
  9
$ATTREQ
 70
     1
  9
$HANDLING
 70
 22529
  9
$HANDSEED
  5
90F
  9
$SURFTAB1
 70
     6
  9
$SURFTAB2
 70
     6
  9
$SURFTYPE
 70
     6
  9
$SURFU
 70
     6
  9
$SURFV
 70
     6
  9
$UCSNAME
  2

  9
$UCSORG
 10
0.0
 20
0.0
 30
0.0
  9
$UCSXDIR
 10
1.0
 20
0.0
 30
0.0
  9
$UCSYDIR
 10
0.0
 20
1.0
 30
0.0
  9
$PUCSNAME
  2

  9
$PUCSORG
 10
0.0
 20
0.0
 30
0.0
  9
$PUCSXDIR
 10
1.0
 20
0.0
 30
0.0
  9
$PUCSYDIR
 10
0.0
 20
1.0
 30
0.0
  9
$USERI1
 70
     0
  9
$USERI2
 70
     0
  9
$USERI3
 70
     0
  9
$USERI4
 70
     0
  9
$USERI5
 70
     0
  9
$USERR1
 40
0.0
  9
$USERR2
 40
0.0
  9
$USERR3
 40
0.0
  9
$USERR4
 40
0.0
  9
$USERR5
 40
0.0
  9
$WORLDVIEW
 70
     1
  9
$SHADEDGE
 70
     3
  9
$SHADEDIF
 70
    70
  9
$TILEMODE
 70
     1
  9
$MAXACTVP
 70
    64
  9
$PLIMCHECK
 70
     0
  9
$PEXTMIN
 10
5530.8505058288574
 20
4032.2499990463248
 30
0.0
  9
$PEXTMAX
 10
49777.654552459717
 20
36290.249991416931
 30
0.0
  9
$PLIMMIN
 10
-1005.413818359375
 20
-751.41663551330555
  9
$PLIMMAX
 10
58379.78515625
 20
41243.248891830452
  9
$UNITMODE
 70
     0
  9
$VISRETAIN
 70
     1
  9
$PLINEGEN
 70
     0
  9
$PSLTSCALE
 70
     1
  0
ENDSEC
  0
SECTION
  2
TABLES
  0
TABLE
  2
VPORT
 70
     4
  0
VPORT
  2
*ACTIVE
 70
     0
 10
0.0
 20
0.0
 11
1.0
 21
1.0
 12
38585.00660438311
 22
22370.26346028686
 13
0.0
 23
0.0
 14
10.0
 24
10.0
 15
10.0
 25
10.0
 16
0.0
 26
0.0
 36
1.0
 17
0.0
 27
0.0
 37
0.0
 40
52848.556715805309
 41
1.383938393839383
 42
50.0
 43
0.0
 44
0.0
 50
0.0
 51
0.0
 71
     0
 72
   100
 73
     1
 74
     3
 75
     0
 76
     0
 77
     0
 78
     0
  0
ENDTAB
  0
TABLE
  2
LTYPE
 70
     1
  0
LTYPE
  2
CONTINUOUS
 70
     0
  3
Solid line
 72
    65
 73
     0
 40
0.0
  0
ENDTAB
  0
TABLE
  2
LAYER
 70
    10
  0
LAYER
  2
0
 70
     0
 62
     7
  6
CONTINUOUS
  0
LAYER
  2
LAYER2
 70
     0
 62
     5
  6
CONTINUOUS
  0
LAYER
  2
LAYER1
 70
     0
 62
     7
  6
CONTINUOUS
  0
LAYER
  2
DEFPOINTS
 70
     0
 62
     7
  6
CONTINUOUS
  0
LAYER
  2
LAYER3
 70
     0
 62
     1
  6
CONTINUOUS
  0
LAYER
  2
LAYER4
 70
     0
 62
    92
  6
CONTINUOUS
  0
LAYER
  2
RAHMEN025
 70
     0
 62
     7
  6
CONTINUOUS
  0
LAYER
  2
RAHMEN07
 70
     0
 62
     5
  6
CONTINUOUS
  0
LAYER
  2
RAHMEN05
 70
     0
 62
     6
  6
CONTINUOUS
  0
LAYER
  2
LAYER6
 70
     0
 62
     7
  6
CONTINUOUS
  0
ENDTAB
  0
TABLE
  2
STYLE
 70
     2
  0
STYLE
  2
STANDARD
 70
     0
 40
0.0
 41
1.0
 50
0.0
 71
     0
 42
2.5
  3
txt
  4

  0
STYLE
  2
ISO_PROPORTIONAL
 70
     0
 40
0.0
 41
1.0
 50
0.0
 71
     0
 42
2.5
  3
isocp.shx
  4

  0
ENDTAB
  0
TABLE
  2
VIEW
 70
     0
  0
ENDTAB
  0
TABLE
  2
UCS
 70
     0
  0
ENDTAB
  0
TABLE
  2
APPID
 70
     2
  0
APPID
  2
ACAD
 70
     0
  0
APPID
  2
RAK
 70
     0
  0
ENDTAB
  0
TABLE
  2
DIMSTYLE
 70
     2
  0
DIMSTYLE
  2
ISO-25
 70
     0
  3

  4

  5

  6

  7

 40
0.0
 41
2.5
 42
0.625
 43
3.75
 44
1.25
 45
0.0
 46
0.0
 47
0.0
 48
0.0
140
2.5
141
2.5
142
0.0
143
0.03937007874016
144
1.0
145
0.0
146
1.0
147
0.625
 71
     0
 72
     0
 73
     0
 74
     0
 75
     0
 76
     0
 77
     1
 78
     8
170
     0
171
     3
172
     1
173
     0
174
     0
175
     0
176
     0
177
     0
178
     0
  0
DIMSTYLE
  2
DIN
 70
     0
  3

  4

  5

  6

  7

 40
1.0
 41
2.5
 42
0.625
 43
3.75
 44
1.25
 45
0.0
 46
0.0
 47
0.0
 48
0.0
140
2.5
141
2.5
142
0.0
143
0.0394
144
1.0
145
1.0
146
1.0
147
0.625
 71
     0
 72
     0
 73
     1
 74
     0
 75
     0
 76
     0
 77
     1
 78
     8
170
     0
171
     2
172
     1
173
     0
174
     0
175
     0
176
     0
177
     0
178
     0
  0
ENDTAB
  0
ENDSEC
  0
SECTION
  2
BLOCKS
  0
BLOCK
  8
0
  2
$MODEL_SPACE
 70
     0
 10
0.0
 20
0.0
 30
0.0
  3
$MODEL_SPACE
  1

  0
ENDBLK
  5
2A4
  8
0
  0
BLOCK
 67
     1
  8
0
  2
$PAPER_SPACE
 70
     0
 10
0.0
 20
0.0
 30
0.0
  3
$PAPER_SPACE
  1

  0
ENDBLK
  5
2A0
 67
     1
  8
0
  0
BLOCK
  8
0
  2
DIN_A4_TITLE_BLOCK
 70
     2
 10
0.0
 20
0.0
 30
0.0
  3
DIN_A4_TITLE_BLOCK
  1

  0
LINE
  5
664
  8
RAHMEN025
 10
210.0
 20
0.0
 30
0.0
 11
210.0
 21
297.0
 31
0.0
  0
LINE
  5
665
  8
RAHMEN025
 10
0.0
 20
297.0
 30
0.0
 11
0.0
 21
0.0
 31
0.0
  0
LINE
  5
666
  8
RAHMEN07
 10
205.0
 20
5.0
 30
0.0
 11
205.0
 21
292.0
 31
0.0
  0
LINE
  5
667
  8
RAHMEN07
 10
17.80000000000026
 20
5.0
 30
0.0
 11
17.80000000000026
 21
292.0
 31
0.0
  0
LINE
  5
668
  8
RAHMEN025
 10
0.0
 20
0.0
 30
0.0
 11
210.0
 21
0.0
 31
0.0
  0
LINE
  5
669
  8
RAHMEN025
 10
17.80000000000026
 20
9.25
 30
0.0
 11
205.0
 21
9.25
 31
0.0
  0
LINE
  5
66A
  8
RAHMEN07
 10
17.80000000000026
 20
60.250000000000021
 30
0.0
 11
205.0000000000002
 21
60.250000000000021
 31
0.0
  0
LINE
  5
66B
  8
RAHMEN07
 10
17.80000000000026
 20
22.0
 30
0.0
 11
205.0
 21
22.0
 31
0.0
  0
LINE
  5
66C
  8
RAHMEN07
 10
17.80000000000026
 20
43.249999999999979
 30
0.0
 11
205.0000000000002
 21
43.249999999999979
 31
0.0
  0
LINE
  5
66D
  8
RAHMEN025
 10
17.80000000000026
 20
39.000000000000007
 30
0.0
 11
116.60000000000009
 21
39.000000000000007
 31
0.0
  0
LINE
  5
66E
  8
RAHMEN025
 10
17.80000000000026
 20
34.750000000000007
 30
0.0
 11
116.60000000000009
 21
34.750000000000007
 31
0.0
  0
LINE
  5
66F
  8
RAHMEN025
 10
17.80000000000026
 20
30.500000000000011
 30
0.0
 11
116.60000000000009
 21
30.500000000000011
 31
0.0
  0
LINE
  5
670
  8
RAHMEN025
 10
17.80000000000026
 20
26.250000000000011
 30
0.0
 11
116.60000000000009
 21
26.250000000000011
 31
0.0
  0
TEXT
  5
671
  8
RAHMEN025
 10
73.65231252739386
 20
5.875
 30
0.0
 40
2.5
  1
Ursprung
  7
ISO_PROPORTIONAL
  0
TEXT
  5
672
  8
RAHMEN025
 10
72.898933563884384
 20
27.125000000000011
 30
0.0
 40
2.5
  1
Norm
  7
ISO_PROPORTIONAL
  0
TEXT
  5
673
  8
RAHMEN025
 10
72.898933563884384
 20
31.375000000000011
 30
0.0
 40
2.5
  1
Gepr.
  7
ISO_PROPORTIONAL
  0
TEXT
  5
674
  8
RAHMEN025
 10
72.898933563884384
 20
35.625000000000007
 30
0.0
 40
2.5
  1
Bearb.
  7
ISO_PROPORTIONAL
  0
TEXT
  5
675
  8
RAHMEN025
 10
74.003665955107067
 20
55.812500000000007
 30
0.0
 40
2.5
  1
(Zul. Abw.)
  7
ISO_PROPORTIONAL
  0
LINE
  5
676
  8
RAHMEN07
 10
17.80000000000026
 20
5.0
 30
0.0
 11
205.0
 21
5.0
 31
0.0
  0
TEXT
  5
677
  8
RAHMEN025
 10
19.403665955107119
 20
55.812500000000007
 30
0.0
 40
2.5
  1
(Verwendungsbereich)
  7
ISO_PROPORTIONAL
  0
LINE
  5
678
  8
RAHMEN025
 10
72.400000000000205
 20
60.250000000000021
 30
0.0
 11
72.400000000000205
 21
5.0
 31
0.0
  0
LINE
  5
679
  8
RAHMEN025
 10
25.600000000000279
 20
43.250000000000007
 30
0.0
 11
25.60000000000025
 21
5.0
 31
0.0
  0
LINE
  5
67A
  8
RAHMEN025
 10
51.60000000000025
 20
43.250000000000007
 30
0.0
 11
51.60000000000025
 21
5.0
 31
0.0
  0
LINE
  5
67B
  8
RAHMEN025
 10
64.60000000000025
 20
43.250000000000007
 30
0.0
 11
64.60000000000025
 21
5.0
 31
0.0
  0
TEXT
  5
67C
  8
RAHMEN025
 10
18.114729977426169
 20
5.875
 30
0.0
 40
2.5
  1
Zust.
  7
ISO_PROPORTIONAL
  0
TEXT
  5
67D
  8
RAHMEN025
 10
31.185439040416071
 20
5.875
 30
0.0
 40
2.5
  1
Änderung
  7
ISO_PROPORTIONAL
  0
TEXT
  5
67E
  8
RAHMEN025
 10
53.411628580724539
 20
5.875
 30
0.0
 40
2.5
  1
Datum
  7
ISO_PROPORTIONAL
  0
TEXT
  5
67F
  8
RAHMEN025
 10
64.675031848482377
 20
5.875
 30
0.0
 40
2.5
  1
Name
  7
ISO_PROPORTIONAL
  0
LINE
  5
680
  8
RAHMEN025
 10
17.80000000000026
 20
13.5
 30
0.0
 11
72.400000000000205
 21
13.5
 31
0.0
  0
LINE
  5
681
  8
RAHMEN025
 10
17.80000000000026
 20
17.75
 30
0.0
 11
72.400000000000205
 21
17.75
 31
0.0
  0
LINE
  5
682
  8
RAHMEN025
 10
116.60000000000019
 20
60.250000000000021
 30
0.0
 11
116.60000000000009
 21
5.0
 31
0.0
  0
LINE
  5
683
  8
RAHMEN025
 10
98.400000000000261
 20
60.250000000000021
 30
0.0
 11
98.400000000000205
 21
22.0
 31
0.0
  0
TEXT
  5
684
  8
RAHMEN025
 10
99.84609815315639
 20
55.812500000000007
 30
0.0
 40
2.5
  1
(Oberfl.)
  7
ISO_PROPORTIONAL
  0
TEXT
  5
685
  8
RAHMEN025
 10
169.72625990249171
 20
55.812500000000007
 30
0.0
 40
2.5
  1
(Gewicht)
  7
ISO_PROPORTIONAL
  0
LINE
  5
686
  8
RAHMEN025
 10
168.60000000000019
 20
60.24999999999995
 30
0.0
 11
168.60000000000019
 21
53.875000000000007
 31
0.0
  0
LINE
  5
687
  8
RAHMEN025
 10
116.60000000000019
 20
53.875000000000007
 30
0.0
 11
205.0000000000002
 21
53.875000000000007
 31
0.0
  0
TEXT
  5
688
  8
RAHMEN025
 10
117.7620476356918
 20
44.124999999999979
 30
0.0
 40
2.5
  1
(Modell- oder Gesenk-Nr)
  7
ISO_PROPORTIONAL
  0
TEXT
  5
689
  8
RAHMEN025
 10
117.7620476356918
 20
50.346350044978188
 30
0.0
 40
2.5
  1
(Werkstoff, Halbzeug)
  7
ISO_PROPORTIONAL
  0
ATTDEF
  5
68A
  8
RAHMEN05
 10
144.50074446870599
 20
30.555109227152428
 30
0.0
 40
5.0
  1
Benennung
  7
ISO_PROPORTIONAL
 72
     4
 11
160.5913536854751
 21
32.214500010383318
 31
0.0
  3
Benennung
  2
BENENNUNG
 70
     0
  0
ATTDEF
  5
68B
  8
RAHMEN05
 10
147.5035696603037
 20
12.82473610229667
 30
0.0
 40
5.0
  1
XXX
  7
ISO_PROPORTIONAL
 72
     4
 11
154.2535696603037
 21
15.32473610229667
 31
0.0
  3
Zeichnungsnummer
  2
ZEICHNUNGSNUMMER
 70
     0
  0
TEXT
  5
68C
  8
RAHMEN025
 10
118.2767000439928
 20
5.875
 30
0.0
 40
2.5
  1
Ersatz für:
  7
ISO_PROPORTIONAL
  0
ATTDEF
  5
68D
  8
RAHMEN025
 10
99.718134102142443
 20
31.456032567255281
 30
0.0
 40
2.5
  1
XXX
  7
ISO_PROPORTIONAL
  3
Geprüft von
  2
NAME
 70
     0
  0
ATTDEF
  5
68E
  8
RAHMEN025
 10
83.455021350337816
 20
31.456032567255281
 30
0.0
 40
2.5
  1
00.00.00
  7
ISO_PROPORTIONAL
  3
Geprüft am
  2
GEPRÜFT
 70
     0
  0
LINE
  5
68F
  8
RAHMEN025
 10
82.800000000000239
 20
43.249999999999979
 30
0.0
 11
82.800000000000182
 21
22.000000000000021
 31
0.0
  0
ATTDEF
  5
690
  8
RAHMEN025
 10
83.455021350337816
 20
35.706032567255278
 30
0.0
 40
2.5
  1
00.00.00
  7
ISO_PROPORTIONAL
  3
Bearbeitet am
  2
BEARBEIT.
 70
     0
  0
TEXT
  5
691
  8
RAHMEN025
 10
86.627910854917616
 20
39.875000000000007
 30
0.0
 40
2.5
  1
Datum
  7
ISO_PROPORTIONAL
  0
ATTDEF
  5
692
  8
RAHMEN025
 10
99.718134102142443
 20
35.706032567255278
 30
0.0
 40
2.5
  1
XXX
  7
ISO_PROPORTIONAL
  3
Gezeichnet von
  2
NAME
 70
     0
  0
TEXT
  5
693
  8
RAHMEN025
 10
103.1733221513886
 20
39.875000000000007
 30
0.0
 40
2.5
  1
Name
  7
ISO_PROPORTIONAL
  0
TEXT
  5
694
  8
RAHMEN025
 10
117.7620476356918
 20
47.257158735959258
 30
0.0
 40
2.5
  1
(Rohteil-Nr)
  7
ISO_PROPORTIONAL
  0
LINE
  5
695
  8
RAHMEN025
 10
192.00000000000011
 20
21.999999999999979
 30
0.0
 11
192.00000000000011
 21
9.25
 31
0.0
  0
TEXT
  5
696
  8
RAHMEN025
 10
162.47670004399271
 20
5.875
 30
0.0
 40
2.5
  1
Ersatz durch:
  7
ISO_PROPORTIONAL
  0
LINE
  5
697
  8
RAHMEN025
 10
160.80000000000001
 20
9.25
 30
0.0
 11
160.80000000000001
 21
4.9999999999999138
 31
0.0
  0
TEXT
  5
698
  8
RAHMEN025
 10
192.91225948332189
 20
10.255790835553951
 30
0.0
 40
2.5
  1
Blätter
  7
ISO_PROPORTIONAL
  0
LINE
  5
699
  8
RAHMEN025
 10
192.0
 20
13.5
 30
0.0
 11
205.0
 21
13.5
 31
0.0
  0
TEXT
  5
69A
  8
RAHMEN025
 10
192.9084594911225
 20
18.632194450093721
 30
0.0
 40
2.5
  1
Blatt
  7
ISO_PROPORTIONAL
  0
ATTDEF
  5
69B
  8
RAHMEN025
 10
133.39162318672871
 20
55.812500000000007
 30
0.0
 40
2.5
  1
1:1
  7
ISO_PROPORTIONAL
  3
Maßstab
  2
MAßSTAB
 70
     0
  0
TEXT
  5
69C
  8
RAHMEN025
 10
117.72625990249171
 20
55.812500000000007
 30
0.0
 40
2.5
  1
Maßstab
  7
ISO_PROPORTIONAL
  0
LINE
  5
69D
  8
RAHMEN025
 10
210.0
 20
297.0
 30
0.0
 11
0.0
 21
297.0
 31
0.0
  0
LINE
  5
69E
  8
RAHMEN07
 10
205.0
 20
292.0
 30
0.0
 11
17.80000000000026
 21
292.0
 31
0.0
  0
ENDBLK
  5
659
  8
0
  0
ENDSEC
  0
SECTION
  2
ENTITIES
  0
INSERT
  5
6A8
  8
LAYER2
 66
     1
  2
DIN_A4_TITLE_BLOCK
 10
61572.077293784867
 20
-3480.4323745683459
 30
0.0
 41
200.0
 42
200.0
 43
200.0
 50
90.0
  0
ATTRIB
  5
6A9
  8
RAHMEN05
 10
55486.153873551222
 20
22104.71020588051
 30
0.0
 40
1000.0
  1
dl2mmg-Seitenansicht
 50
90.0
  7
ISO_PROPORTIONAL
 72
     4
 11
55129.177291708198
 21
28637.83836252668
 31
0.0
  2
BENENNUNG
 70
     0
  0
ATTRIB
  5
6AA
  8
RAHMEN05
 10
58864.106655168558
 20
24638.403400846219
 30
0.0
 40
1000.0
  1
dl2mmg-1
 50
90.0
  7
ISO_PROPORTIONAL
 72
     4
 11
58507.130073325527
 21
27370.281557492399
 31
0.0
  2
ZEICHNUNGSNUMMER
 70
     0
  0
ATTRIB
  5
6AB
  8
RAHMEN025
 10
55280.870780333811
 20
16463.194445860139
 30
0.0
 40
500.0
  1
XXX
 50
90.0
  7
ISO_PROPORTIONAL
  2
NAME
 70
     0
  0
ATTRIB
  5
6AC
  8
RAHMEN025
 10
55280.870780333811
 20
13210.57189549921
 30
0.0
 40
500.0
  1
00.00.00
 50
90.0
  7
ISO_PROPORTIONAL
  2
GEPRÜFT
 70
     0
  0
ATTRIB
  5
6AD
  8
RAHMEN025
 10
54430.870780333811
 20
13210.57189549921
 30
0.0
 40
500.0
  1
19.09.04
 50
90.0
  7
ISO_PROPORTIONAL
  2
BEARBEIT.
 70
     0
  0
ATTRIB
  5
6AE
  8
RAHMEN025
 10
54430.870780333811
 20
16463.194445860139
 30
0.0
 40
500.0
  1
dj9yj
 50
90.0
  7
ISO_PROPORTIONAL
  2
NAME
 70
     0
  0
ATTRIB
  5
6AF
  8
RAHMEN025
 10
50409.577293784867
 20
23197.89226277739
 30
0.0
 40
500.0
  1
1:200
 50
90.0
  7
ISO_PROPORTIONAL
  2
MAßSTAB
 70
     0
  0
SEQEND
  5
6B0
  8
LAYER2
  0
LINE
  5
7B8
  8
LAYER4
 10
13130.84982433772
 20
27520.440930262979
 30
0.0
 11
6966.3710807963789
 21
27520.440930262979
 31
0.0
  0
LINE
  5
7B9
  8
LAYER1
 10
5107.8242358624411
 20
30520.440930262979
 30
0.0
 11
45808.36428492234
 21
30520.440930262968
 31
0.0
  0
LINE
  5
7BA
  8
LAYER2
 10
18880.849824337711
 20
22020.440930262979
 30
0.0
 11
38430.849824337718
 21
22020.440930262979
 31
0.0
  0
LINE
  5
7BB
  8
LAYER3
 10
38430.849824337718
 20
27520.440930262968
 30
0.0
 11
18880.849824337711
 21
27520.44093026299
 31
0.0
  0
LINE
  5
7BC
  8
LAYER3
 10
38430.849824337718
 20
16520.440930262968
 30
0.0
 11
18880.849824337711
 21
16520.440930262968
 31
0.0
  0
LINE
  5
7BD
  8
LAYER2
 10
18880.849824337711
 20
22020.440930262979
 30
0.0
 11
38430.849824337718
 21
22020.440930262979
 31
0.0
  0
LINE
  5
7BE
  8
LAYER4
 10
45808.36428492234
 20
11038.6887422855
 30
0.0
 11
45808.36428492234
 21
27520.440930262968
 31
0.0
  0
ARC
  5
7BF
  8
LAYER3
 10
38430.849824337711
 20
22020.440930262979
 30
0.0
 40
5500.0
 50
270.0
 51
90.0
  0
LINE
  5
7C0
  8
LAYER1
 10
38430.849824337718
 20
30520.440930262968
 30
0.0
 11
38430.849824337718
 21
22020.440930262979
 31
0.0
  0
LINE
  5
7C1
  8
LAYER4
 10
39530.849824337711
 20
27520.440930262968
 30
0.0
 11
39530.849824337711
 21
30520.440930262968
 31
0.0
  0
LINE
  5
7C2
  8
LAYER4
 10
39530.849824337711
 20
27520.440930262968
 30
0.0
 11
45808.36428492234
 21
27520.440930262968
 31
0.0
  0
LINE
  5
7C3
  8
LAYER3
 10
25521.103334714971
 20
18718.763968356609
 30
0.0
 11
24219.5410634769
 21
13378.98098735171
 31
0.0
  0
LINE
  5
7C4
  8
LAYER3
 10
13538.3461157824
 20
13381.806521495
 30
0.0
 11
12239.63923403262
 21
18722.153578442631
 31
0.0
  0
LINE
  5
7C5
  8
LAYER3
 10
12452.702640773879
 20
14909.805418445811
 30
0.0
 11
12141.779320730629
 21
20487.69272566383
 31
0.0
  0
LINE
  5
7C6
  8
LAYER3
 10
26708.997007901569
 20
14909.805418445811
 30
0.0
 11
27019.920327944819
 21
20487.69272566383
 31
0.0
  0
LINE
  5
7C7
  8
LAYER2
 10
19580.849824337722
 20
20521.044679036029
 30
0.0
 11
19580.849824337722
 21
15320.44093026299
 31
0.0
  0
LINE
  5
7C8
  8
LAYER2
 10
18880.849824337711
 20
20020.440930262968
 30
0.0
 11
18880.849824337711
 21
15420.44093026301
 31
0.0
  0
ARC
  5
7C9
  8
LAYER3
 10
18880.8498243377
 20
22020.44093026299
 30
0.0
 40
5500.0
 50
90.0
 51
270.0
  0
LINE
  5
7CA
  8
LAYER6
 10
17680.849824337711
 20
22481.043019406599
 30
0.0
 11
22530.849824337711
 21
24772.801261164819
 31
0.0
  0
LINE
  5
7CB
  8
LAYER6
 10
22530.849824337711
 20
26965.286885379719
 30
0.0
 11
17680.849824337711
 21
24780.12205021489
 31
0.0
  0
LINE
  5
7CC
  8
LAYER6
 10
22573.573020272459
 20
24682.38705581455
 30
0.0
 11
17680.849824337711
 21
22370.440930262968
 31
0.0
  0
LINE
  5
7CD
  8
LAYER6
 10
22571.92794705812
 20
26874.113491049091
 30
0.0
 11
17680.849824337711
 21
24670.440930262979
 31
0.0
  0
ARC
  5
7CE
  8
LAYER3
 10
20180.8498243377
 20
20020.440930262968
 30
0.0
 40
5496.6053586058297
 50
346.30138255725331
 51
89.98757083653156
  0
POLYLINE
  5
7CF
  8
LAYER3
 66
     1
 10
0.0
 20
0.0
 30
0.0
 70
     8
  0
VERTEX
  5
7D0
  8
0
 10
27020.779910785241
 20
20511.551222235252
 30
0.0
 70
    32
  0
VERTEX
  5
7D1
  8
0
 10
27019.37991078525
 20
20563.551222235252
 30
0.0
 70
    32
  0
VERTEX
  5
7D2
  8
0
 10
27013.37991078525
 20
20615.45122223525
 30
0.0
 70
    32
  0
VERTEX
  5
7D3
  8
0
 10
27002.979910785241
 20
20667.251222235249
 30
0.0
 70
    32
  0
VERTEX
  5
7D4
  8
0
 10
26987.979910785241
 20
20719.051222235252
 30
0.0
 70
    32
  0
VERTEX
  5
7D5
  8
0
 10
26968.57991078524
 20
20770.65122223525
 30
0.0
 70
    32
  0
VERTEX
  5
7D6
  8
0
 10
26944.679910785238
 20
20822.15122223525
 30
0.0
 70
    32
  0
VERTEX
  5
7D7
  8
0
 10
26916.37991078525
 20
20873.45122223525
 30
0.0
 70
    32
  0
VERTEX
  5
7D8
  8
0
 10
26883.57991078524
 20
20924.551222235252
 30
0.0
 70
    32
  0
VERTEX
  5
7D9
  8
0
 10
26846.279910785241
 20
20975.45122223525
 30
0.0
 70
    32
  0
VERTEX
  5
7DA
  8
0
 10
26804.679910785231
 20
21025.95122223525
 30
0.0
 70
    32
  0
VERTEX
  5
7DB
  8
0
 10
26758.679910785231
 20
21076.251222235249
 30
0.0
 70
    32
  0
VERTEX
  5
7DC
  8
0
 10
26708.279910785241
 20
21126.151222235239
 30
0.0
 70
    32
  0
VERTEX
  5
7DD
  8
0
 10
26653.679910785231
 20
21175.751222235249
 30
0.0
 70
    32
  0
VERTEX
  5
7DE
  8
0
 10
26594.679910785231
 20
21224.95122223525
 30
0.0
 70
    32
  0
VERTEX
  5
7DF
  8
0
 10
26531.479910785241
 20
21273.65122223525
 30
0.0
 70
    32
  0
VERTEX
  5
7E0
  8
0
 10
26464.07991078524
 20
21321.95122223525
 30
0.0
 70
    32
  0
VERTEX
  5
7E1
  8
0
 10
26392.479910785241
 20
21369.751222235249
 30
0.0
 70
    32
  0
VERTEX
  5
7E2
  8
0
 10
26316.779910785241
 20
21417.051222235252
 30
0.0
 70
    32
  0
VERTEX
  5
7E3
  8
0
 10
26236.979910785241
 20
21463.751222235249
 30
0.0
 70
    32
  0
VERTEX
  5
7E4
  8
0
 10
26153.07991078524
 20
21509.95122223525
 30
0.0
 70
    32
  0
VERTEX
  5
7E5
  8
0
 10
26065.279910785241
 20
21555.551222235252
 30
0.0
 70
    32
  0
VERTEX
  5
7E6
  8
0
 10
25973.57991078524
 20
21600.45122223525
 30
0.0
 70
    32
  0
VERTEX
  5
7E7
  8
0
 10
25877.979910785241
 20
21644.751222235249
 30
0.0
 70
    32
  0
VERTEX
  5
7E8
  8
0
 10
25778.57991078524
 20
21688.351222235251
 30
0.0
 70
    32
  0
VERTEX
  5
7E9
  8
0
 10
25675.37991078525
 20
21731.251222235249
 30
0.0
 70
    32
  0
VERTEX
  5
7EA
  8
0
 10
25568.479910785241
 20
21773.45122223525
 30
0.0
 70
    32
  0
VERTEX
  5
7EB
  8
0
 10
25457.979910785241
 20
21814.851222235251
 30
0.0
 70
    32
  0
VERTEX
  5
7EC
  8
0
 10
25343.979910785241
 20
21855.45122223525
 30
0.0
 70
    32
  0
VERTEX
  5
7ED
  8
0
 10
25226.37991078525
 20
21895.351222235251
 30
0.0
 70
    32
  0
VERTEX
  5
7EE
  8
0
 10
25105.37991078525
 20
21934.351222235251
 30
0.0
 70
    32
  0
VERTEX
  5
7EF
  8
0
 10
24981.07991078524
 20
21972.45122223525
 30
0.0
 70
    32
  0
VERTEX
  5
7F0
  8
0
 10
24853.479910785241
 20
22009.65122223525
 30
0.0
 70
    32
  0
VERTEX
  5
7F1
  8
0
 10
24722.679910785238
 20
22046.051222235252
 30
0.0
 70
    32
  0
VERTEX
  5
7F2
  8
0
 10
24588.779910785241
 20
22081.45122223525
 30
0.0
 70
    32
  0
VERTEX
  5
7F3
  8
0
 10
24451.87991078525
 20
22115.95122223525
 30
0.0
 70
    32
  0
VERTEX
  5
7F4
  8
0
 10
24311.979910785241
 20
22149.45122223525
 30
0.0
 70
    32
  0
VERTEX
  5
7F5
  8
0
 10
24169.279910785241
 20
22181.95122223525
 30
0.0
 70
    32
  0
VERTEX
  5
7F6
  8
0
 10
24023.679910785238
 20
22213.551222235252
 30
0.0
 70
    32
  0
VERTEX
  5
7F7
  8
0
 10
23875.479910785241
 20
22244.051222235252
 30
0.0
 70
    32
  0
VERTEX
  5
7F8
  8
0
 10
23724.679910785238
 20
22273.45122223525
 30
0.0
 70
    32
  0
VERTEX
  5
7F9
  8
0
 10
23571.37991078525
 20
22301.851222235251
 30
0.0
 70
    32
  0
VERTEX
  5
7FA
  8
0
 10
23415.57991078524
 20
22329.15122223525
 30
0.0
 70
    32
  0
VERTEX
  5
7FB
  8
0
 10
23257.57991078524
 20
22355.351222235251
 30
0.0
 70
    32
  0
VERTEX
  5
7FC
  8
0
 10
23097.279910785241
 20
22380.551222235252
 30
0.0
 70
    32
  0
VERTEX
  5
7FD
  8
0
 10
22934.779910785241
 20
22404.45122223525
 30
0.0
 70
    32
  0
VERTEX
  5
7FE
  8
0
 10
22770.37991078525
 20
22427.351222235251
 30
0.0
 70
    32
  0
VERTEX
  5
7FF
  8
0
 10
22603.979910785241
 20
22449.051222235252
 30
0.0
 70
    32
  0
VERTEX
  5
800
  8
0
 10
22435.679910785231
 20
22469.551222235252
 30
0.0
 70
    32
  0
VERTEX
  5
801
  8
0
 10
22265.779910785241
 20
22488.851222235251
 30
0.0
 70
    32
  0
VERTEX
  5
802
  8
0
 10
22094.179910785231
 20
22507.051222235252
 30
0.0
 70
    32
  0
VERTEX
  5
803
  8
0
 10
21921.07991078524
 20
22523.95122223525
 30
0.0
 70
    32
  0
VERTEX
  5
804
  8
0
 10
21746.57991078524
 20
22539.65122223525
 30
0.0
 70
    32
  0
VERTEX
  5
805
  8
0
 10
21570.679910785231
 20
22554.15122223525
 30
0.0
 70
    32
  0
VERTEX
  5
806
  8
0
 10
21393.679910785238
 20
22567.45122223525
 30
0.0
 70
    32
  0
VERTEX
  5
807
  8
0
 10
21215.57991078524
 20
22579.45122223525
 30
0.0
 70
    32
  0
VERTEX
  5
808
  8
0
 10
21036.37991078525
 20
22590.251222235249
 30
0.0
 70
    32
  0
VERTEX
  5
809
  8
0
 10
20856.37991078525
 20
22599.851222235251
 30
0.0
 70
    32
  0
VERTEX
  5
80A
  8
0
 10
20675.57991078524
 20
22608.051222235252
 30
0.0
 70
    32
  0
VERTEX
  5
80B
  8
0
 10
20494.179910785231
 20
22615.051222235252
 30
0.0
 70
    32
  0
VERTEX
  5
80C
  8
0
 10
20312.179910785231
 20
22620.851222235251
 30
0.0
 70
    32
  0
VERTEX
  5
80D
  8
0
 10
20129.679910785231
 20
22625.251222235249
 30
0.0
 70
    32
  0
VERTEX
  5
80E
  8
0
 10
19946.979910785241
 20
22628.45122223525
 30
0.0
 70
    32
  0
VERTEX
  5
80F
  8
0
 10
19763.979910785241
 20
22630.45122223525
 30
0.0
 70
    32
  0
VERTEX
  5
810
  8
0
 10
19580.87991078525
 20
22631.051222235252
 30
0.0
 70
    32
  0
VERTEX
  5
811
  8
0
 10
19397.779910785241
 20
22630.45122223525
 30
0.0
 70
    32
  0
VERTEX
  5
812
  8
0
 10
19214.779910785241
 20
22628.45122223525
 30
0.0
 70
    32
  0
VERTEX
  5
813
  8
0
 10
19031.979910785241
 20
22625.251222235249
 30
0.0
 70
    32
  0
VERTEX
  5
814
  8
0
 10
18849.479910785241
 20
22620.851222235251
 30
0.0
 70
    32
  0
VERTEX
  5
815
  8
0
 10
18667.479910785241
 20
22615.051222235252
 30
0.0
 70
    32
  0
VERTEX
  5
816
  8
0
 10
18486.079910785251
 20
22608.051222235252
 30
0.0
 70
    32
  0
VERTEX
  5
817
  8
0
 10
18305.279910785241
 20
22599.851222235251
 30
0.0
 70
    32
  0
VERTEX
  5
818
  8
0
 10
18125.279910785241
 20
22590.251222235249
 30
0.0
 70
    32
  0
VERTEX
  5
819
  8
0
 10
17946.179910785238
 20
22579.45122223525
 30
0.0
 70
    32
  0
VERTEX
  5
81A
  8
0
 10
17767.979910785241
 20
22567.45122223525
 30
0.0
 70
    32
  0
VERTEX
  5
81B
  8
0
 10
17590.979910785241
 20
22554.15122223525
 30
0.0
 70
    32
  0
VERTEX
  5
81C
  8
0
 10
17415.179910785238
 20
22539.65122223525
 30
0.0
 70
    32
  0
VERTEX
  5
81D
  8
0
 10
17240.579910785251
 20
22523.95122223525
 30
0.0
 70
    32
  0
VERTEX
  5
81E
  8
0
 10
17067.479910785241
 20
22507.051222235252
 30
0.0
 70
    32
  0
VERTEX
  5
81F
  8
0
 10
16895.979910785241
 20
22488.851222235251
 30
0.0
 70
    32
  0
VERTEX
  5
820
  8
0
 10
16725.979910785241
 20
22469.551222235252
 30
0.0
 70
    32
  0
VERTEX
  5
821
  8
0
 10
16557.779910785241
 20
22449.051222235252
 30
0.0
 70
    32
  0
VERTEX
  5
822
  8
0
 10
16391.37991078525
 20
22427.351222235251
 30
0.0
 70
    32
  0
VERTEX
  5
823
  8
0
 10
16226.87991078525
 20
22404.45122223525
 30
0.0
 70
    32
  0
VERTEX
  5
824
  8
0
 10
16064.47991078524
 20
22380.551222235252
 30
0.0
 70
    32
  0
VERTEX
  5
825
  8
0
 10
15904.17991078524
 20
22355.351222235251
 30
0.0
 70
    32
  0
VERTEX
  5
826
  8
0
 10
15746.079910785251
 20
22329.15122223525
 30
0.0
 70
    32
  0
VERTEX
  5
827
  8
0
 10
15590.37991078525
 20
22301.851222235251
 30
0.0
 70
    32
  0
VERTEX
  5
828
  8
0
 10
15436.97991078524
 20
22273.45122223525
 30
0.0
 70
    32
  0
VERTEX
  5
829
  8
0
 10
15286.17991078524
 20
22244.051222235252
 30
0.0
 70
    32
  0
VERTEX
  5
82A
  8
0
 10
15137.97991078524
 20
22213.551222235252
 30
0.0
 70
    32
  0
VERTEX
  5
82B
  8
0
 10
14992.47991078524
 20
22181.95122223525
 30
0.0
 70
    32
  0
VERTEX
  5
82C
  8
0
 10
14849.67991078524
 20
22149.45122223525
 30
0.0
 70
    32
  0
VERTEX
  5
82D
  8
0
 10
14709.779910785241
 20
22115.95122223525
 30
0.0
 70
    32
  0
VERTEX
  5
82E
  8
0
 10
14572.87991078525
 20
22081.45122223525
 30
0.0
 70
    32
  0
VERTEX
  5
82F
  8
0
 10
14438.97991078524
 20
22046.051222235252
 30
0.0
 70
    32
  0
VERTEX
  5
830
  8
0
 10
14308.17991078524
 20
22009.65122223525
 30
0.0
 70
    32
  0
VERTEX
  5
831
  8
0
 10
14180.579910785251
 20
21972.45122223525
 30
0.0
 70
    32
  0
VERTEX
  5
832
  8
0
 10
14056.279910785241
 20
21934.351222235251
 30
0.0
 70
    32
  0
VERTEX
  5
833
  8
0
 10
13935.279910785241
 20
21895.351222235251
 30
0.0
 70
    32
  0
VERTEX
  5
834
  8
0
 10
13817.779910785241
 20
21855.45122223525
 30
0.0
 70
    32
  0
VERTEX
  5
835
  8
0
 10
13703.67991078524
 20
21814.851222235251
 30
0.0
 70
    32
  0
VERTEX
  5
836
  8
0
 10
13593.17991078524
 20
21773.45122223525
 30
0.0
 70
    32
  0
VERTEX
  5
837
  8
0
 10
13486.37991078525
 20
21731.251222235249
 30
0.0
 70
    32
  0
VERTEX
  5
838
  8
0
 10
13383.17991078524
 20
21688.351222235251
 30
0.0
 70
    32
  0
VERTEX
  5
839
  8
0
 10
13283.779910785241
 20
21644.751222235249
 30
0.0
 70
    32
  0
VERTEX
  5
83A
  8
0
 10
13188.079910785251
 20
21600.45122223525
 30
0.0
 70
    32
  0
VERTEX
  5
83B
  8
0
 10
13096.37991078525
 20
21555.551222235252
 30
0.0
 70
    32
  0
VERTEX
  5
83C
  8
0
 10
13008.579910785251
 20
21509.95122223525
 30
0.0
 70
    32
  0
VERTEX
  5
83D
  8
0
 10
12924.779910785241
 20
21463.751222235249
 30
0.0
 70
    32
  0
VERTEX
  5
83E
  8
0
 10
12844.97991078524
 20
21417.051222235252
 30
0.0
 70
    32
  0
VERTEX
  5
83F
  8
0
 10
12769.279910785241
 20
21369.751222235249
 30
0.0
 70
    32
  0
VERTEX
  5
840
  8
0
 10
12697.67991078524
 20
21321.95122223525
 30
0.0
 70
    32
  0
VERTEX
  5
841
  8
0
 10
12630.279910785241
 20
21273.65122223525
 30
0.0
 70
    32
  0
VERTEX
  5
842
  8
0
 10
12566.97991078524
 20
21224.95122223525
 30
0.0
 70
    32
  0
VERTEX
  5
843
  8
0
 10
12508.079910785251
 20
21175.751222235249
 30
0.0
 70
    32
  0
VERTEX
  5
844
  8
0
 10
12453.37991078525
 20
21126.151222235239
 30
0.0
 70
    32
  0
VERTEX
  5
845
  8
0
 10
12403.079910785251
 20
21076.251222235249
 30
0.0
 70
    32
  0
VERTEX
  5
846
  8
0
 10
12357.079910785251
 20
21025.95122223525
 30
0.0
 70
    32
  0
VERTEX
  5
847
  8
0
 10
12315.37991078525
 20
20975.45122223525
 30
0.0
 70
    32
  0
VERTEX
  5
848
  8
0
 10
12278.17991078524
 20
20924.551222235252
 30
0.0
 70
    32
  0
VERTEX
  5
849
  8
0
 10
12245.37991078525
 20
20873.45122223525
 30
0.0
 70
    32
  0
VERTEX
  5
84A
  8
0
 10
12216.97991078524
 20
20822.15122223525
 30
0.0
 70
    32
  0
VERTEX
  5
84B
  8
0
 10
12193.079910785251
 20
20770.65122223525
 30
0.0
 70
    32
  0
VERTEX
  5
84C
  8
0
 10
12173.67991078524
 20
20719.051222235252
 30
0.0
 70
    32
  0
VERTEX
  5
84D
  8
0
 10
12158.779910785241
 20
20667.251222235249
 30
0.0
 70
    32
  0
VERTEX
  5
84E
  8
0
 10
12148.279910785241
 20
20615.45122223525
 30
0.0
 70
    32
  0
VERTEX
  5
84F
  8
0
 10
12142.37991078525
 20
20563.551222235252
 30
0.0
 70
    32
  0
VERTEX
  5
850
  8
0
 10
12140.87991078525
 20
20511.551222235252
 30
0.0
 70
    32
  0
SEQEND
  5
851
  8
0
  0
LINE
  5
852
  8
LAYER6
 10
25930.849824337711
 20
28184.303018249499
 30
0.0
 11
22230.849824337711
 21
27422.538312367142
 31
0.0
  0
LINE
  5
853
  8
LAYER6
 10
25918.650654213241
 20
28079.69404229616
 30
0.0
 11
22230.849824337711
 21
27320.440930262968
 31
0.0
  0
LINE
  5
854
  8
LAYER6
 10
22230.849824337711
 20
24520.440930262979
 30
0.0
 11
22230.849824337711
 21
30520.440930262968
 31
0.0
  0
LINE
  5
855
  8
LAYER1
 10
28130.849824337722
 20
30520.440930262968
 30
0.0
 11
28130.849824337722
 21
22020.440930262979
 31
0.0
  0
LINE
  5
856
  8
LAYER6
 10
25918.650654213241
 20
28079.69404229616
 30
0.0
 11
25930.849824337711
 21
28184.303018249499
 31
0.0
  0
LINE
  5
857
  8
LAYER6
 10
25630.849824337722
 20
28020.440930262968
 30
0.0
 11
25630.849824337722
 21
30520.440930262968
 31
0.0
  0
LINE
  5
858
  8
LAYER6
 10
22571.92794705812
 20
26874.113491049091
 30
0.0
 11
22530.849824337711
 21
26965.286885379719
 31
0.0
  0
LINE
  5
859
  8
LAYER6
 10
22573.573020272459
 20
24682.38705581455
 30
0.0
 11
22530.849824337711
 21
24772.801261164819
 31
0.0
  0
LINE
  5
85A
  8
LAYER4
 10
13130.84982433772
 20
27520.440930262979
 30
0.0
 11
13130.84982433772
 21
30520.440930262979
 31
0.0
  0
LINE
  5
85B
  8
LAYER6
 10
12830.849824337711
 20
24772.801261164819
 30
0.0
 11
17680.849824337711
 21
22481.043019406581
 31
0.0
  0
LINE
  5
85C
  8
LAYER6
 10
12830.849824337711
 20
26965.286885379719
 30
0.0
 11
17680.849824337711
 21
24780.12205021489
 31
0.0
  0
LINE
  5
85D
  8
LAYER6
 10
17680.849824337711
 20
22370.440930262968
 30
0.0
 11
12788.126628402981
 21
24682.38705581455
 31
0.0
  0
LINE
  5
85E
  8
LAYER6
 10
17680.849824337711
 20
24670.440930262979
 30
0.0
 11
12789.771701617319
 21
26874.113491049091
 31
0.0
  0
ARC
  5
85F
  8
LAYER3
 10
17580.58067134985
 20
20021.005006205662
 30
0.0
 40
5496.6053586058297
 50
89.98757083653156
 51
193.6683041343608
  0
POLYLINE
  5
860
  8
LAYER6
 66
     1
 10
0.0
 20
0.0
 30
0.0
 70
     1
  0
VERTEX
  5
8F1
  8
LAYER6
 10
18211.669872044389
 20
23935.73021107382
 30
0.0
  0
VERTEX
  5
8F2
  8
LAYER6
 10
17151.954627089239
 20
23935.73021107382
 30
0.0
  0
VERTEX
  5
8F3
  8
LAYER6
 10
17151.954627089239
 20
23059.44287506603
 30
0.0
  0
VERTEX
  5
8F4
  8
LAYER6
 10
18211.669872044389
 20
23059.44287506603
 30
0.0
  0
SEQEND
  5
8F5
  8
LAYER6
  0
POLYLINE
  5
861
  8
LAYER6
 66
     1
 10
0.0
 20
0.0
 30
0.0
 70
     1
  0
VERTEX
  5
8F6
  8
LAYER6
 10
18159.33830726389
 20
23870.335630258051
 30
0.0
  0
VERTEX
  5
8F7
  8
LAYER6
 10
17217.36915864703
 20
23870.335630258051
 30
0.0
  0
VERTEX
  5
8F8
  8
LAYER6
 10
17217.36915864703
 20
23124.83745588177
 30
0.0
  0
VERTEX
  5
8F9
  8
LAYER6
 10
18159.33830726389
 20
23124.83745588177
 30
0.0
  0
SEQEND
  5
8FA
  8
LAYER6
  0
LINE
  5
862
  8
LAYER1
 10
19580.849824337722
 20
20520.440930262968
 30
0.0
 11
19580.849824337722
 21
23268.24312806518
 31
0.0
  0
LINE
  5
863
  8
LAYER1
 10
18880.849824337711
 20
25211.100270922321
 30
0.0
 11
18880.849824337711
 21
20020.440930262968
 31
0.0
  0
LINE
  5
864
  8
LAYER6
 10
17581.773048982272
 20
25517.610235480359
 30
0.0
 11
20182.042201970151
 21
25517.046159537651
 31
0.0
  0
POLYLINE
  5
865
  8
LAYER6
 66
     1
 10
0.0
 20
0.0
 30
0.0
 70
     1
  0
VERTEX
  5
8FB
  8
LAYER6
 10
20006.168266062701
 20
27208.245892628362
 30
0.0
  0
VERTEX
  5
8FC
  8
LAYER6
 10
18530.769142728768
 20
27208.245892628362
 30
0.0
  0
VERTEX
  5
8FD
  8
LAYER6
 10
18530.769142728768
 20
26123.10460094301
 30
0.0
  0
VERTEX
  5
8FE
  8
LAYER6
 10
20006.168266062701
 20
26123.10460094301
 30
0.0
  0
SEQEND
  5
8FF
  8
LAYER6
  0
POLYLINE
  5
866
  8
LAYER6
 66
     1
 10
0.0
 20
0.0
 30
0.0
 70
     1
  0
VERTEX
  5
900
  8
LAYER6
 10
19964.013988120081
 20
27166.10449098716
 30
0.0
  0
VERTEX
  5
901
  8
LAYER6
 10
18583.461990157011
 20
27166.10449098716
 30
0.0
  0
VERTEX
  5
902
  8
LAYER6
 10
18583.461990157011
 20
26165.246002584201
 30
0.0
  0
VERTEX
  5
903
  8
LAYER6
 10
19964.013988120081
 20
26165.246002584201
 30
0.0
  0
SEQEND
  5
904
  8
LAYER6
  0
POLYLINE
  5
867
  8
LAYER6
 66
     1
 10
0.0
 20
0.0
 30
0.0
 70
     1
  0
VERTEX
  5
905
  8
LAYER6
 10
16823.521641874839
 20
27208.245892628362
 30
0.0
  0
VERTEX
  5
906
  8
LAYER6
 10
15348.12251854092
 20
27208.245892628362
 30
0.0
  0
VERTEX
  5
907
  8
LAYER6
 10
15348.12251854092
 20
26123.10460094301
 30
0.0
  0
VERTEX
  5
908
  8
LAYER6
 10
16823.521641874839
 20
26123.10460094301
 30
0.0
  0
SEQEND
  5
909
  8
LAYER6
  0
POLYLINE
  5
868
  8
LAYER6
 66
     1
 10
0.0
 20
0.0
 30
0.0
 70
     1
  0
VERTEX
  5
90A
  8
LAYER6
 10
16781.367363932259
 20
27166.10449098716
 30
0.0
  0
VERTEX
  5
90B
  8
LAYER6
 10
15400.81536596918
 20
27166.10449098716
 30
0.0
  0
VERTEX
  5
90C
  8
LAYER6
 10
15400.81536596918
 20
26165.246002584201
 30
0.0
  0
VERTEX
  5
90D
  8
LAYER6
 10
16781.367363932259
 20
26165.246002584201
 30
0.0
  0
SEQEND
  5
90E
  8
LAYER6
  0
LINE
  5
869
  8
LAYER2
 10
17580.849824337711
 20
20020.440930262968
 30
0.0
 11
20180.8498243377
 21
20020.440930262968
 31
0.0
  0
LINE
  5
86A
  8
LAYER2
 10
19280.849824337722
 20
20520.440930262968
 30
0.0
 11
19880.849824337722
 21
20520.440930262968
 31
0.0
  0
LINE
  5
86B
  8
LAYER6
 10
13130.84982433772
 20
27520.440930262979
 30
0.0
 11
13130.84982433774
 21
24631.043019406621
 31
0.0
  0
LINE
  5
86C
  8
LAYER6
 10
12830.849824337711
 20
26965.286885379719
 30
0.0
 11
12789.771701617319
 21
26874.113491049091
 31
0.0
  0
LINE
  5
86D
  8
LAYER6
 10
12830.849824337711
 20
24772.801261164819
 30
0.0
 11
12788.126628402981
 21
24682.38705581455
 31
0.0
  0
ARC
  5
86E
  8
LAYER3
 10
18879.287553099632
 20
14680.657949258049
 30
0.0
 40
5496.6053586058297
 50
193.6683041343608
 51
346.30138255725331
  0
ARC
  5
86F
  8
LAYER3
 10
19580.849824337722
 20
15321.044679036049
 30
0.0
 40
7140.0
 50
183.30186567429089
 51
356.69813432570902
  0
LINE
  5
870
  8
LAYER4
 10
6966.3710807963789
 20
11038.688742285511
 30
0.0
 11
6966.3710807963789
 21
27520.440930262979
 31
0.0
  0
TEXT
  5
886
  8
LAYER3
 10
39141.826079803839
 20
33389.049922252962
 30
0.0
 40
500.0
  1
Kontrollierbarer Bereich
 50
180.0
  0
TEXT
  5
887
  8
LAYER3
 10
39241.63481984043
 20
34386.832116694488
 30
0.0
 40
500.0
  1
Sicherheitsbereich
 50
180.0
  0
VIEWPORT
  5
875
 67
     1
  8
0
 10
28687.18566894532
 20
20245.916128158591
 30
0.0
 40
62829.540485879683
 41
45399.087680178563
 68
     1
 69
     1
1001
ACAD
1000
MVIEW
1002
{
1070
    16
1010
0.0
1020
0.0
1030
0.0
1010
0.0
1020
0.0
1030
1.0
1040
0.0
1040
45399.087680178563
1040
28687.18566894532
1040
20245.916128158591
1040
50.0
1040
0.0
1040
0.0
1070
     0
1070
   100
1070
     1
1070
     1
1070
     0
1070
     0
1070
     0
1070
     0
1040
0.0
1040
0.0
1040
0.0
1040
10.0
1040
10.0
1040
10.0
1040
10.0
1070
     0
1002
{
1002
}
1002
}
  0
VIEWPORT
  5
877
 67
     1
  8
LAYER2
 10
27654.25252914428
 20
20161.249995231621
 30
0.0
 40
44246.804046630859
 41
32257.999992370598
 68
     2
 69
     2
1001
ACAD
1000
MVIEW
1002
{
1070
    16
1010
0.0
1020
0.0
1030
0.0
1010
0.0
1020
0.0
1030
1.0
1040
0.0
1040
43601.738199956613
1040
31870.380488559629
1040
17518.997173398391
1040
50.0
1040
0.0
1040
0.0
1070
     0
1070
   100
1070
     1
1070
     3
1070
     0
1070
     0
1070
     0
1070
     0
1040
0.0
1040
0.0
1040
0.0
1040
10.0
1040
10.0
1040
10.0
1040
10.0
1070
     0
1002
{
1002
}
1002
}
  0
ENDSEC
  0
EOF
