  0
SECTION
  2
HEADER
  9
$ACADVER
  1
AC1009
  9
$INSBASE
 10
0.0
 20
0.0
 30
0.0
  9
$EXTMIN
 10
-5548.3496891855757
 20
-9659.6544595539744
 30
-0.0015258207003583
  9
$EXTMAX
 10
53855.275799099902
 20
32342.909017011509
 30
0.0000000349246037
  9
$LIMMIN
 10
0.0
 20
0.0
  9
$LIMMAX
 10
50000.0
 20
297.0
  9
$ORTHOMODE
 70
     0
  9
$REGENMODE
 70
     1
  9
$FILLMODE
 70
     1
  9
$QTEXTMODE
 70
     0
  9
$MIRRTEXT
 70
     1
  9
$DRAGMODE
 70
     2
  9
$LTSCALE
 40
1.0
  9
$OSMODE
 70
    37
  9
$ATTMODE
 70
     1
  9
$TEXTSIZE
 40
2.5
  9
$TRACEWID
 40
1.0
  9
$TEXTSTYLE
  7
STANDARD
  9
$CLAYER
  8
0
  9
$CELTYPE
  6
BYLAYER
  9
$CECOLOR
 62
   256
  9
$DIMSCALE
 40
1.0
  9
$DIMASZ
 40
2.5
  9
$DIMEXO
 40
0.625
  9
$DIMDLI
 40
3.75
  9
$DIMRND
 40
0.0
  9
$DIMDLE
 40
0.0
  9
$DIMEXE
 40
1.25
  9
$DIMTP
 40
0.0
  9
$DIMTM
 40
0.0
  9
$DIMTXT
 40
2.5
  9
$DIMCEN
 40
2.5
  9
$DIMTSZ
 40
0.0
  9
$DIMTOL
 70
     0
  9
$DIMLIM
 70
     0
  9
$DIMTIH
 70
     0
  9
$DIMTOH
 70
     0
  9
$DIMSE1
 70
     0
  9
$DIMSE2
 70
     0
  9
$DIMTAD
 70
     1
  9
$DIMZIN
 70
     8
  9
$DIMBLK
  1

  9
$DIMASO
 70
     1
  9
$DIMSHO
 70
     1
  9
$DIMPOST
  1

  9
$DIMAPOST
  1

  9
$DIMALT
 70
     0
  9
$DIMALTD
 70
     3
  9
$DIMALTF
 40
0.03937007874016
  9
$DIMLFAC
 40
1.0
  9
$DIMTOFL
 70
     1
  9
$DIMTVP
 40
0.0
  9
$DIMTIX
 70
     0
  9
$DIMSOXD
 70
     0
  9
$DIMSAH
 70
     0
  9
$DIMBLK1
  1

  9
$DIMBLK2
  1

  9
$DIMSTYLE
  2
ISO-25
  9
$DIMCLRD
 70
     0
  9
$DIMCLRE
 70
     0
  9
$DIMCLRT
 70
     0
  9
$DIMTFAC
 40
1.0
  9
$DIMGAP
 40
0.625
  9
$LUNITS
 70
     2
  9
$LUPREC
 70
     4
  9
$SKETCHINC
 40
1.0
  9
$FILLETRAD
 40
10.0
  9
$AUNITS
 70
     0
  9
$AUPREC
 70
     0
  9
$MENU
  1
.
  9
$ELEVATION
 40
0.0
  9
$PELEVATION
 40
0.0
  9
$THICKNESS
 40
0.0
  9
$LIMCHECK
 70
     0
  9
$BLIPMODE
 70
     0
  9
$CHAMFERA
 40
10.0
  9
$CHAMFERB
 40
10.0
  9
$SKPOLY
 70
     0
  9
$TDCREATE
 40
2453270.5641045598
  9
$TDUPDATE
 40
2453274.6927218172
  9
$TDINDWG
 40
0.2346562731
  9
$TDUSRTIMER
 40
0.2346559259
  9
$USRTIMER
 70
     1
  9
$ANGBASE
 50
90.0
  9
$ANGDIR
 70
     0
  9
$PDMODE
 70
     0
  9
$PDSIZE
 40
0.0
  9
$PLINEWID
 40
0.0
  9
$COORDS
 70
     2
  9
$SPLFRAME
 70
     0
  9
$SPLINETYPE
 70
     6
  9
$SPLINESEGS
 70
     8
  9
$ATTDIA
 70
     0
  9
$ATTREQ
 70
     1
  9
$HANDLING
 70
 22529
  9
$HANDSEED
  5
12E3
  9
$SURFTAB1
 70
     6
  9
$SURFTAB2
 70
     6
  9
$SURFTYPE
 70
     6
  9
$SURFU
 70
     6
  9
$SURFV
 70
     6
  9
$UCSNAME
  2

  9
$UCSORG
 10
0.0
 20
0.0
 30
0.0
  9
$UCSXDIR
 10
1.0
 20
0.0
 30
0.0
  9
$UCSYDIR
 10
0.0
 20
1.0
 30
0.0
  9
$PUCSNAME
  2

  9
$PUCSORG
 10
0.0
 20
0.0
 30
0.0
  9
$PUCSXDIR
 10
1.0
 20
0.0
 30
0.0
  9
$PUCSYDIR
 10
0.0
 20
1.0
 30
0.0
  9
$USERI1
 70
     0
  9
$USERI2
 70
     0
  9
$USERI3
 70
     0
  9
$USERI4
 70
     0
  9
$USERI5
 70
     0
  9
$USERR1
 40
0.0
  9
$USERR2
 40
0.0
  9
$USERR3
 40
0.0
  9
$USERR4
 40
0.0
  9
$USERR5
 40
0.0
  9
$WORLDVIEW
 70
     1
  9
$SHADEDGE
 70
     3
  9
$SHADEDIF
 70
    70
  9
$TILEMODE
 70
     1
  9
$MAXACTVP
 70
    64
  9
$PLIMCHECK
 70
     0
  9
$PEXTMIN
 10
1.1445000838107009
 20
0.8019999828864268
 30
0.0
  9
$PEXTMAX
 10
10.30050075429631
 20
7.2179998459778441
 30
0.0
  9
$PLIMMIN
 10
-0.1249995194082185
 20
-0.1249999981226883
  9
$PLIMMAX
 10
11.57000083622969
 20
8.1449999490122167
  9
$UNITMODE
 70
     0
  9
$VISRETAIN
 70
     1
  9
$PLINEGEN
 70
     0
  9
$PSLTSCALE
 70
     1
  0
ENDSEC
  0
SECTION
  2
TABLES
  0
TABLE
  2
VPORT
 70
     3
  0
VPORT
  2
*ACTIVE
 70
     0
 10
0.0
 20
0.0
 11
1.0
 21
1.0
 12
24153.463054957159
 22
11341.62727872876
 13
0.0
 23
0.0
 14
10.0
 24
10.0
 15
10.0
 25
10.0
 16
0.0
 26
0.0
 36
1.0
 17
0.0
 27
0.0
 37
0.0
 40
42604.791008375811
 41
1.401149425287356
 42
50.0
 43
0.0
 44
0.0
 50
0.0
 51
0.0
 71
     0
 72
   100
 73
     1
 74
     3
 75
     0
 76
     0
 77
     0
 78
     0
  0
ENDTAB
  0
TABLE
  2
LTYPE
 70
     1
  0
LTYPE
  2
CONTINUOUS
 70
     0
  3
Solid line
 72
    65
 73
     0
 40
0.0
  0
ENDTAB
  0
TABLE
  2
LAYER
 70
    10
  0
LAYER
  2
0
 70
     0
 62
     7
  6
CONTINUOUS
  0
LAYER
  2
LAYER4
 70
     0
 62
     3
  6
CONTINUOUS
  0
LAYER
  2
LAYER3
 70
     0
 62
     1
  6
CONTINUOUS
  0
LAYER
  2
LAYER2
 70
     0
 62
     5
  6
CONTINUOUS
  0
LAYER
  2
LAYER1
 70
     0
 62
     7
  6
CONTINUOUS
  0
LAYER
  2
LAYER5
 70
     0
 62
     6
  6
CONTINUOUS
  0
LAYER
  2
RAHMEN025
 70
     0
 62
     7
  6
CONTINUOUS
  0
LAYER
  2
RAHMEN07
 70
     0
 62
     5
  6
CONTINUOUS
  0
LAYER
  2
RAHMEN05
 70
     0
 62
     6
  6
CONTINUOUS
  0
LAYER
  2
LAYER6
 70
     0
 62
     7
  6
CONTINUOUS
  0
ENDTAB
  0
TABLE
  2
STYLE
 70
     2
  0
STYLE
  2
STANDARD
 70
     0
 40
0.0
 41
1.0
 50
0.0
 71
     0
 42
2.5
  3
txt
  4

  0
STYLE
  2
ISO_PROPORTIONAL
 70
     0
 40
0.0
 41
1.0
 50
0.0
 71
     0
 42
2.5
  3
isocp.shx
  4

  0
ENDTAB
  0
TABLE
  2
VIEW
 70
     0
  0
ENDTAB
  0
TABLE
  2
UCS
 70
     0
  0
ENDTAB
  0
TABLE
  2
APPID
 70
     1
  0
APPID
  2
ACAD
 70
     0
  0
ENDTAB
  0
TABLE
  2
DIMSTYLE
 70
     2
  0
DIMSTYLE
  2
ISO-25
 70
     0
  3

  4

  5

  6

  7

 40
1.0
 41
2.5
 42
0.625
 43
3.75
 44
1.25
 45
0.0
 46
0.0
 47
0.0
 48
0.0
140
2.5
141
2.5
142
0.0
143
0.03937007874016
144
1.0
145
0.0
146
1.0
147
0.625
 71
     0
 72
     0
 73
     0
 74
     0
 75
     0
 76
     0
 77
     1
 78
     8
170
     0
171
     3
172
     1
173
     0
174
     0
175
     0
176
     0
177
     0
178
     0
  0
DIMSTYLE
  2
DIN
 70
     0
  3

  4

  5

  6

  7

 40
1.0
 41
2.5
 42
0.625
 43
3.75
 44
1.25
 45
0.0
 46
0.0
 47
0.0
 48
0.0
140
2.5
141
2.5
142
0.0
143
0.0394
144
1.0
145
1.0
146
1.0
147
0.625
 71
     0
 72
     0
 73
     1
 74
     0
 75
     0
 76
     0
 77
     1
 78
     8
170
     0
171
     2
172
     1
173
     0
174
     0
175
     0
176
     0
177
     0
178
     0
  0
ENDTAB
  0
ENDSEC
  0
SECTION
  2
BLOCKS
  0
BLOCK
  8
0
  2
$MODEL_SPACE
 70
     0
 10
0.0
 20
0.0
 30
0.0
  3
$MODEL_SPACE
  1

  0
ENDBLK
  5
DC3
  8
0
  0
BLOCK
 67
     1
  8
0
  2
$PAPER_SPACE
 70
     0
 10
0.0
 20
0.0
 30
0.0
  3
$PAPER_SPACE
  1

  0
ENDBLK
  5
DBF
 67
     1
  8
0
  0
BLOCK
  8
0
  2
DIN_A4_TITLE_BLOCK
 70
     2
 10
0.0
 20
0.0
 30
0.0
  3
DIN_A4_TITLE_BLOCK
  1

  0
LINE
  5
E63
  8
RAHMEN025
 10
210.0
 20
0.0
 30
0.0
 11
210.0
 21
297.0
 31
0.0
  0
LINE
  5
E64
  8
RAHMEN025
 10
0.0
 20
297.0
 30
0.0
 11
0.0
 21
0.0
 31
0.0
  0
LINE
  5
E65
  8
RAHMEN07
 10
205.0
 20
5.0
 30
0.0
 11
205.0
 21
292.0
 31
0.0
  0
LINE
  5
E66
  8
RAHMEN07
 10
17.80000000000026
 20
5.0
 30
0.0
 11
17.80000000000026
 21
292.0
 31
0.0
  0
LINE
  5
E67
  8
RAHMEN025
 10
0.0
 20
0.0
 30
0.0
 11
210.0
 21
0.0
 31
0.0
  0
LINE
  5
E68
  8
RAHMEN025
 10
17.80000000000026
 20
9.25
 30
0.0
 11
205.0
 21
9.25
 31
0.0
  0
LINE
  5
E69
  8
RAHMEN07
 10
17.80000000000026
 20
60.250000000000021
 30
0.0
 11
205.0000000000002
 21
60.250000000000021
 31
0.0
  0
LINE
  5
E6A
  8
RAHMEN07
 10
17.80000000000026
 20
22.0
 30
0.0
 11
205.0
 21
22.0
 31
0.0
  0
LINE
  5
E6B
  8
RAHMEN07
 10
17.80000000000026
 20
43.249999999999979
 30
0.0
 11
205.0000000000002
 21
43.249999999999979
 31
0.0
  0
LINE
  5
E6C
  8
RAHMEN025
 10
17.80000000000026
 20
39.0
 30
0.0
 11
116.59999999999989
 21
39.0
 31
0.0
  0
LINE
  5
E6D
  8
RAHMEN025
 10
17.80000000000026
 20
34.75
 30
0.0
 11
116.59999999999989
 21
34.75
 31
0.0
  0
LINE
  5
E6E
  8
RAHMEN025
 10
17.80000000000026
 20
30.500000000000011
 30
0.0
 11
116.59999999999989
 21
30.500000000000011
 31
0.0
  0
LINE
  5
E6F
  8
RAHMEN025
 10
17.80000000000026
 20
26.250000000000011
 30
0.0
 11
116.59999999999989
 21
26.250000000000011
 31
0.0
  0
TEXT
  5
E70
  8
RAHMEN025
 10
73.65231252739386
 20
5.875
 30
0.0
 40
2.5
  1
Ursprung
  7
ISO_PROPORTIONAL
  0
TEXT
  5
E71
  8
RAHMEN025
 10
72.89893356388437
 20
27.125000000000011
 30
0.0
 40
2.5
  1
Norm
  7
ISO_PROPORTIONAL
  0
TEXT
  5
E72
  8
RAHMEN025
 10
72.89893356388437
 20
31.375000000000011
 30
0.0
 40
2.5
  1
Gepr.
  7
ISO_PROPORTIONAL
  0
TEXT
  5
E73
  8
RAHMEN025
 10
72.89893356388437
 20
35.625
 30
0.0
 40
2.5
  1
Bearb.
  7
ISO_PROPORTIONAL
  0
TEXT
  5
E74
  8
RAHMEN025
 10
74.003665955107053
 20
55.8125
 30
0.0
 40
2.5
  1
(Zul. Abw.)
  7
ISO_PROPORTIONAL
  0
LINE
  5
E75
  8
RAHMEN07
 10
17.80000000000026
 20
5.0
 30
0.0
 11
205.0
 21
5.0
 31
0.0
  0
TEXT
  5
E76
  8
RAHMEN025
 10
19.403665955107119
 20
55.8125
 30
0.0
 40
2.5
  1
(Verwendungsbereich)
  7
ISO_PROPORTIONAL
  0
LINE
  5
E77
  8
RAHMEN025
 10
72.40000000000019
 20
60.250000000000021
 30
0.0
 11
72.40000000000019
 21
5.0
 31
0.0
  0
LINE
  5
E78
  8
RAHMEN025
 10
25.600000000000279
 20
43.250000000000007
 30
0.0
 11
25.600000000000239
 21
5.0
 31
0.0
  0
LINE
  5
E79
  8
RAHMEN025
 10
51.60000000000025
 20
43.250000000000007
 30
0.0
 11
51.60000000000025
 21
5.0
 31
0.0
  0
LINE
  5
E7A
  8
RAHMEN025
 10
64.60000000000025
 20
43.250000000000007
 30
0.0
 11
64.60000000000025
 21
5.0
 31
0.0
  0
TEXT
  5
E7B
  8
RAHMEN025
 10
18.114729977426151
 20
5.875
 30
0.0
 40
2.5
  1
Zust.
  7
ISO_PROPORTIONAL
  0
TEXT
  5
E7C
  8
RAHMEN025
 10
31.18543904041606
 20
5.875
 30
0.0
 40
2.5
  1
Änderung
  7
ISO_PROPORTIONAL
  0
TEXT
  5
E7D
  8
RAHMEN025
 10
53.411628580724532
 20
5.875
 30
0.0
 40
2.5
  1
Datum
  7
ISO_PROPORTIONAL
  0
TEXT
  5
E7E
  8
RAHMEN025
 10
64.675031848482377
 20
5.875
 30
0.0
 40
2.5
  1
Name
  7
ISO_PROPORTIONAL
  0
LINE
  5
E7F
  8
RAHMEN025
 10
17.80000000000026
 20
13.5
 30
0.0
 11
72.40000000000019
 21
13.5
 31
0.0
  0
LINE
  5
E80
  8
RAHMEN025
 10
17.80000000000026
 20
17.75
 30
0.0
 11
72.40000000000019
 21
17.75
 31
0.0
  0
LINE
  5
E81
  8
RAHMEN025
 10
116.60000000000019
 20
60.250000000000021
 30
0.0
 11
116.59999999999989
 21
5.0
 31
0.0
  0
LINE
  5
E82
  8
RAHMEN025
 10
98.400000000000261
 20
60.250000000000021
 30
0.0
 11
98.400000000000205
 21
22.0
 31
0.0
  0
TEXT
  5
E83
  8
RAHMEN025
 10
99.846098153156433
 20
55.8125
 30
0.0
 40
2.5
  1
(Oberfl.)
  7
ISO_PROPORTIONAL
  0
TEXT
  5
E84
  8
RAHMEN025
 10
169.72625990249171
 20
55.8125
 30
0.0
 40
2.5
  1
(Gewicht)
  7
ISO_PROPORTIONAL
  0
LINE
  5
E85
  8
RAHMEN025
 10
168.60000000000011
 20
60.24999999999995
 30
0.0
 11
168.60000000000011
 21
53.875000000000007
 31
0.0
  0
LINE
  5
E86
  8
RAHMEN025
 10
116.60000000000019
 20
53.875000000000007
 30
0.0
 11
205.0000000000002
 21
53.875000000000007
 31
0.0
  0
TEXT
  5
E87
  8
RAHMEN025
 10
117.7620476356918
 20
44.124999999999957
 30
0.0
 40
2.5
  1
(Modell- oder Gesenk-Nr)
  7
ISO_PROPORTIONAL
  0
TEXT
  5
E88
  8
RAHMEN025
 10
117.7620476356918
 20
50.34635004497818
 30
0.0
 40
2.5
  1
(Werkstoff, Halbzeug)
  7
ISO_PROPORTIONAL
  0
ATTDEF
  5
E89
  8
RAHMEN05
 10
144.5007444687059
 20
30.555109227152421
 30
0.0
 40
5.0
  1
Benennung
  7
ISO_PROPORTIONAL
 72
     4
 11
160.5913536854751
 21
32.214500010383318
 31
0.0
  3
Benennung
  2
BENENNUNG
 70
     0
  0
ATTDEF
  5
E8A
  8
RAHMEN05
 10
147.50356966030361
 20
12.82473610229667
 30
0.0
 40
5.0
  1
XXX
  7
ISO_PROPORTIONAL
 72
     4
 11
154.2535696603037
 21
15.32473610229667
 31
0.0
  3
Zeichnungsnummer
  2
ZEICHNUNGSNUMMER
 70
     0
  0
TEXT
  5
E8B
  8
RAHMEN025
 10
118.2767000439928
 20
5.875
 30
0.0
 40
2.5
  1
Ersatz für:
  7
ISO_PROPORTIONAL
  0
ATTDEF
  5
E8C
  8
RAHMEN025
 10
99.718134102142429
 20
31.456032567255281
 30
0.0
 40
2.5
  1
XXX
  7
ISO_PROPORTIONAL
  3
Geprüft von
  2
NAME
 70
     0
  0
ATTDEF
  5
E8D
  8
RAHMEN025
 10
83.455021350337816
 20
31.456032567255281
 30
0.0
 40
2.5
  1
00.00.00
  7
ISO_PROPORTIONAL
  3
Geprüft am
  2
GEPRÜFT
 70
     0
  0
LINE
  5
E8E
  8
RAHMEN025
 10
82.800000000000239
 20
43.249999999999979
 30
0.0
 11
82.800000000000196
 21
22.000000000000011
 31
0.0
  0
ATTDEF
  5
E8F
  8
RAHMEN025
 10
83.455021350337816
 20
35.706032567255278
 30
0.0
 40
2.5
  1
00.00.00
  7
ISO_PROPORTIONAL
  3
Bearbeitet am
  2
BEARBEIT.
 70
     0
  0
TEXT
  5
E90
  8
RAHMEN025
 10
86.627910854917616
 20
39.875
 30
0.0
 40
2.5
  1
Datum
  7
ISO_PROPORTIONAL
  0
ATTDEF
  5
E91
  8
RAHMEN025
 10
99.718134102142429
 20
35.706032567255278
 30
0.0
 40
2.5
  1
XXX
  7
ISO_PROPORTIONAL
  3
Gezeichnet von
  2
NAME
 70
     0
  0
TEXT
  5
E92
  8
RAHMEN025
 10
103.1733221513885
 20
39.875
 30
0.0
 40
2.5
  1
Name
  7
ISO_PROPORTIONAL
  0
TEXT
  5
E93
  8
RAHMEN025
 10
117.7620476356918
 20
47.257158735959251
 30
0.0
 40
2.5
  1
(Rohteil-Nr)
  7
ISO_PROPORTIONAL
  0
LINE
  5
E94
  8
RAHMEN025
 10
192.0
 20
21.999999999999972
 30
0.0
 11
192.0
 21
9.25
 31
0.0
  0
TEXT
  5
E95
  8
RAHMEN025
 10
162.47670004399271
 20
5.875
 30
0.0
 40
2.5
  1
Ersatz durch:
  7
ISO_PROPORTIONAL
  0
LINE
  5
E96
  8
RAHMEN025
 10
160.80000000000001
 20
9.25
 30
0.0
 11
160.80000000000001
 21
4.9999999999999121
 31
0.0
  0
TEXT
  5
E97
  8
RAHMEN025
 10
192.91225948332169
 20
10.255790835553951
 30
0.0
 40
2.5
  1
Blätter
  7
ISO_PROPORTIONAL
  0
LINE
  5
E98
  8
RAHMEN025
 10
192.0
 20
13.5
 30
0.0
 11
205.0
 21
13.5
 31
0.0
  0
TEXT
  5
E99
  8
RAHMEN025
 10
192.9084594911223
 20
18.63219445009371
 30
0.0
 40
2.5
  1
Blatt
  7
ISO_PROPORTIONAL
  0
ATTDEF
  5
E9A
  8
RAHMEN025
 10
133.39162318672871
 20
55.8125
 30
0.0
 40
2.5
  1
1:1
  7
ISO_PROPORTIONAL
  3
Maßstab
  2
MAßSTAB
 70
     0
  0
TEXT
  5
E9B
  8
RAHMEN025
 10
117.72625990249171
 20
55.8125
 30
0.0
 40
2.5
  1
Maßstab
  7
ISO_PROPORTIONAL
  0
LINE
  5
E9C
  8
RAHMEN025
 10
210.0
 20
297.0
 30
0.0
 11
0.0
 21
297.0
 31
0.0
  0
LINE
  5
E9D
  8
RAHMEN07
 10
205.0
 20
292.0
 30
0.0
 11
17.80000000000026
 21
292.0
 31
0.0
  0
ENDBLK
  5
E9E
  8
0
  0
ENDSEC
  0
SECTION
  2
ENTITIES
  0
INSERT
  5
122B
  8
0
 66
     1
  2
DIN_A4_TITLE_BLOCK
 10
53853.462916655757
 20
-9658.3728190601123
 30
0.0
 41
200.0
 42
200.0
 43
200.0
 50
90.0
  0
ATTRIB
  5
122C
  8
RAHMEN05
 10
47767.539496422098
 20
18509.897918034902
 30
0.0
 40
1000.0
  1
dl2mmg-Oben
 50
90.0
  7
ISO_PROPORTIONAL
 72
     4
 11
47410.562914579074
 21
22459.897918034909
 31
0.0
  2
BENENNUNG
 70
     0
  0
ATTRIB
  5
122D
  8
RAHMEN05
 10
51145.492278039441
 20
18339.752278235788
 30
0.0
 40
1000.0
  1
dl2mmg-3
 50
90.0
  7
ISO_PROPORTIONAL
 72
     4
 11
50788.515696196417
 21
21192.341113000632
 31
0.0
  2
ZEICHNUNGSNUMMER
 70
     0
  0
ATTRIB
  5
122E
  8
RAHMEN025
 10
47562.256403204708
 20
10285.25400136837
 30
0.0
 40
500.0
  1
XXX
 50
90.0
  7
ISO_PROPORTIONAL
  2
NAME
 70
     0
  0
ATTRIB
  5
122F
  8
RAHMEN025
 10
47562.256403204708
 20
7032.6314510074526
 30
0.0
 40
500.0
  1
00.00.00
 50
90.0
  7
ISO_PROPORTIONAL
  2
GEPRÜFT
 70
     0
  0
ATTRIB
  5
1230
  8
RAHMEN025
 10
46712.256403204708
 20
7032.6314510074526
 30
0.0
 40
500.0
  1
19.09.04
 50
90.0
  7
ISO_PROPORTIONAL
  2
BEARBEIT.
 70
     0
  0
ATTRIB
  5
1231
  8
RAHMEN025
 10
46712.256403204708
 20
10285.25400136837
 30
0.0
 40
500.0
  1
dj9yj
 50
90.0
  7
ISO_PROPORTIONAL
  2
NAME
 70
     0
  0
ATTRIB
  5
1232
  8
RAHMEN025
 10
42690.96291665575
 20
17019.951818285612
 30
0.0
 40
500.0
  1
1:200
 50
90.0
  7
ISO_PROPORTIONAL
  2
MAßSTAB
 70
     0
  0
SEQEND
  5
1233
  8
0
  0
TEXT
  5
1263
  8
0
 10
39442.330153537572
 20
-2256.4550350332129
 30
0.0
 40
500.0
  1
Kontrollierbarer Bereich
 50
90.0
  0
TEXT
  5
1264
  8
0
 10
40440.112347979113
 20
-2356.263775069805
 30
0.0
 40
500.0
  1
Sicherheitsbereich
 50
90.0
  0
LINE
  5
1265
  8
0
 10
-2811.716110267148
 20
25961.019348567232
 30
0.0
 11
1659.297492943645
 21
24333.703479999222
 31
0.0
  0
CIRCLE
  5
1267
  8
0
 10
-140.72090301761631
 20
24988.856597260721
 30
0.0
 40
781.47184873018341
  0
LINE
  5
126D
  8
0
 10
-2106.8069375463429
 20
25491.617837340458
 30
0.0
 11
-2811.7161102671521
 21
25961.019348567232
 31
0.0
  0
LINE
  5
126E
  8
0
 10
-2811.7161102671521
 20
25961.019348567232
 30
0.0
 11
-1969.9988802160769
 21
25867.494885654822
 31
0.0
  0
LINE
  5
126F
  8
0
 10
-1969.9988802160769
 20
25867.494885654822
 30
0.0
 11
-2106.8069375463429
 21
25491.617837340458
 31
0.0
  0
LINE
  5
12BC
  8
LAYER4
 10
-3692.6381641331682
 20
29251.771916640351
 30
0.0
 11
38409.217337426002
 21
29251.771916640351
 31
0.0
  0
LINE
  5
12BD
  8
LAYER4
 10
-3692.6381641331682
 20
-2835.1071151670481
 30
0.0
 11
38409.217337426002
 21
-2835.1071151670481
 31
0.0
  0
CIRCLE
  5
12BE
  8
LAYER3
 10
22534.876296451439
 20
12591.97020860078
 30
0.0
 40
14571.61273181192
  0
LINE
  5
12BF
  8
LAYER1
 10
2584.8762964514608
 20
27766.970208600778
 30
0.0
 11
34484.876296451439
 21
27766.9702086008
 31
0.0
  0
LINE
  5
12C0
  8
LAYER1
 10
2584.8762964514608
 20
22141.970208600778
 30
0.0
 11
34484.876296451439
 21
22141.9702086008
 31
0.0
  0
LINE
  5
12C1
  8
LAYER1
 10
2584.8762964514608
 20
16516.970208600778
 30
0.0
 11
34484.876296451439
 21
16516.9702086008
 31
0.0
1001
ACAD
1000
ASC_BOUNDS
1002
{
1070
    19
1005
0
1002
}
  0
LINE
  5
12C2
  8
LAYER1
 10
34484.876296451439
 20
7111.9702086007837
 30
0.0
 11
2584.8762964514608
 21
5835.9702086007856
 31
0.0
1001
ACAD
1000
ASC_BOUNDS
1002
{
1070
    19
1005
0
1005
0
1005
0
1002
}
  0
LINE
  5
12C3
  8
LAYER4
 10
-3692.6381641331682
 20
29251.771916640351
 30
0.0
 11
-3692.6381641331682
 21
-2835.1071151670481
 31
0.0
  0
LINE
  5
12C4
  8
LAYER1
 10
2584.8762964514608
 20
27766.970208600778
 30
0.0
 11
2584.8762964514608
 21
5835.9702086007856
 31
0.0
  0
LINE
  5
12C5
  8
LAYER1
 10
28984.876296451439
 20
27766.970208600789
 30
0.0
 11
28984.876296451439
 21
6891.9702086007846
 31
0.0
1001
ACAD
1000
ASC_BOUNDS
1002
{
1070
    19
1005
0
1005
0
1002
}
  0
LINE
  5
12C6
  8
LAYER1
 10
24434.87629645145
 20
6709.9702086007828
 30
0.0
 11
24434.87629645145
 21
27766.970208600778
 31
0.0
1001
ACAD
1000
ASC_BOUNDS
1002
{
1070
    19
1005
0
1005
0
1005
0
1005
0
1002
}
  0
LINE
  5
12C7
  8
LAYER1
 10
19884.876296451461
 20
27766.970208600789
 30
0.0
 11
19884.876296451461
 21
6527.9702086007837
 31
0.0
1001
ACAD
1000
ASC_BOUNDS
1002
{
1070
    19
1005
0
1002
}
  0
LINE
  5
12C8
  8
LAYER3
 10
12804.415370877319
 20
13866.09821201962
 30
0.0
 11
2430.0522692813101
 21
11435.073343308341
 31
0.0
  0
LINE
  5
12C9
  8
LAYER2
 10
3684.8762964514458
 20
6080.1301446519346
 30
0.0
 11
13984.876296451441
 21
8493.7295051634228
 31
0.0
  0
LINE
  5
12CA
  8
LAYER3
 10
24419.45651356686
 20
5021.0513198799053
 30
0.0
 11
4869.4565135668672
 21
709.21125593105899
 31
0.0
  0
ARC
  5
12CB
  8
LAYER3
 10
3684.8762964514458
 20
6080.1301446519346
 30
0.0
 40
5500.0
 50
103.188168534347
 51
282.43771765593931
  0
LINE
  5
12CC
  8
LAYER3
 10
4869.4564335321338
 20
709.21123827903284
 30
0.0
 11
4869.4565135650619
 21
709.21125593065335
 31
0.0
  0
POINT
  5
12CD
  8
LAYER1
 10
3684.8762964514458
 20
6080.1301446519346
 30
0.0
  0
CIRCLE
  5
12CE
  8
LAYER3
 10
22534.876296451439
 20
12591.97020860078
 30
0.0
 40
7439.0705036070831
  0
CIRCLE
  5
12CF
  8
LAYER3
 10
23234.876296451461
 20
10391.97020860078
 30
0.0
 40
6796.6053586058406
  0
LINE
  5
12D0
  8
LAYER1
 10
16484.876296451439
 20
10891.97020860078
 30
0.0
 11
16484.876296451439
 21
6391.9702086007837
 31
0.0
  0
ARC
  5
12D1
  8
LAYER3
 10
23234.876296451461
 20
10391.97020860078
 30
0.0
 40
5500.0
 50
282.43771765593931
 51
101.59695911795779
1001
ACAD
1000
ASC_BOUNDS
1002
{
1070
    19
1005
0
1005
0
1005
0
1005
0
1002
}
  0
POINT
  5
12D2
  8
LAYER1
 10
24332.383067820519
 20
5002.5844470506818
 30
0.0
  0
LINE
  5
12D3
  8
LAYER1
 10
16484.876296451439
 20
10891.97020860078
 30
0.0
 11
28984.876296451432
 21
10891.97020860078
 31
0.0
1001
ACAD
1000
ASC_BOUNDS
1002
{
1070
    19
1005
0
1005
0
1005
0
1005
0
1005
0
1002
}
  0
LINE
  5
12D4
  8
LAYER2
 10
13984.876296451441
 20
8493.7295051634228
 30
0.0
 11
23234.876296451461
 21
10391.97020860078
 31
0.0
  0
LINE
  5
12D5
  8
LAYER3
 10
12804.415370877319
 20
13866.09821201962
 30
0.0
 11
22129.237596603849
 21
15779.693574310581
 31
0.0
  0
CIRCLE
  5
12D6
  8
LAYER2
 10
23234.876296451461
 20
10391.97020860078
 30
0.0
 40
1300.0
  0
POINT
  5
12D7
  8
LAYER1
 10
23234.876296451461
 20
10391.97020860078
 30
0.0
  0
CIRCLE
  5
12D8
  8
LAYER2
 10
22534.876296451439
 20
12591.97020860078
 30
0.0
 40
350.0
  0
LINE
  5
12D9
  8
LAYER2
 10
22534.876296451439
 20
12941.97020860078
 30
0.0
 11
22534.876296451439
 21
12241.97020860078
 31
0.0
  0
LINE
  5
12DA
  8
LAYER2
 10
22884.876296451439
 20
12591.97020860078
 30
0.0
 11
22184.876296451439
 21
12591.97020860078
 31
0.0
  0
LINE
  5
12DB
  8
LAYER4
 10
38409.217337426002
 20
29251.771916640351
 30
0.0
 11
38409.217337426002
 21
-2835.1071151670481
 31
0.0
  0
LINE
  5
12DC
  8
LAYER1
 10
34484.876296451439
 20
27766.9702086008
 30
0.0
 11
34484.876296451439
 21
7111.9702086007856
 31
0.0
  0
VIEWPORT
  5
128F
 67
     1
  8
0
 10
5.7225006584107403
 20
4.0099999754447637
 30
0.0
 40
12.373310376264911
 41
8.9406511383345073
 68
     1
 69
     1
1001
ACAD
1000
MVIEW
1002
{
1070
    16
1010
0.0
1020
0.0
1030
0.0
1010
0.0
1020
0.0
1030
1.0
1040
0.0
1040
8.9406511383345073
1040
5.7225006584107403
1040
4.0099999754447637
1040
50.0
1040
0.0
1040
0.0
1070
     0
1070
   100
1070
     1
1070
     1
1070
     0
1070
     0
1070
     0
1070
     0
1040
0.0
1040
0.0
1040
0.0
1040
10.0
1040
10.0
1040
10.0
1040
10.0
1070
     0
1002
{
1002
}
1002
}
  0
VIEWPORT
  5
1291
 67
     1
  8
0
 10
5.7225004190535049
 20
4.009999914432135
 30
0.0
 40
9.1560006704856072
 41
6.4159998630914181
 68
     2
 69
     2
1001
ACAD
1000
MVIEW
1002
{
1070
    16
1010
0.0
1020
0.0
1030
0.0
1010
0.0
1020
0.0
1030
1.0
1040
0.0
1040
42386.503067484657
1040
24153.462916655761
1040
11341.62718093988
1040
50.0
1040
0.0
1040
0.0
1070
     0
1070
   100
1070
     1
1070
     3
1070
     0
1070
     0
1070
     0
1070
     0
1040
0.0
1040
0.0
1040
0.0
1040
10.0
1040
10.0
1040
10.0
1040
10.0
1070
     0
1002
{
1002
}
1002
}
  0
ENDSEC
  0
EOF
